ISO-10303-21;
HEADER;
FILE_DESCRIPTION(('CATIA V5 STEP Exchange'),'2;1');

FILE_NAME('C:\\Dokumente und Einstellungen\\mah\\Desktop\\Mendel 7-Lager-X-Achse\\7 bearing X carriage.stp','2010-08-22T11:10:40+00:00',('none'),('none'),'CATIA Version 5 Release 16 (IN-10)','CATIA V5 STEP AP203','none');

FILE_SCHEMA(('CONFIG_CONTROL_DESIGN'));

ENDSEC;
/* file written by CATIA V5R16 */
DATA;
#5=PRODUCT('7 bearing X carriage','','',(#2)) ;
#54=PRODUCT('Rod','','',(#2)) ;
#171=PRODUCT('Ball bearing','','',(#2)) ;
#1=APPLICATION_CONTEXT('configuration controlled 3D design of mechanical parts and assemblies') ;
#17=PRODUCT_DEFINITION('7 bearing X carriage',' ',#6,#3) ;
#19=SECURITY_CLASSIFICATION(' ',' ',#18) ;
#18=SECURITY_CLASSIFICATION_LEVEL('unclassified') ;
#61=CARTESIAN_POINT('Axis2P3D Location',(0.,100.,0.)) ;
#66=CARTESIAN_POINT('Line Origine',(-4.,100.,0.)) ;
#70=CARTESIAN_POINT('Vertex',(-4.,0.,0.)) ;
#72=CARTESIAN_POINT('Vertex',(-4.,200.,0.)) ;
#75=CARTESIAN_POINT('Axis2P3D Location',(0.,0.,0.)) ;
#79=CARTESIAN_POINT('Vertex',(4.,0.,4.89842541529E-016)) ;
#82=CARTESIAN_POINT('Line Origine',(4.,100.,4.89842541529E-016)) ;
#86=CARTESIAN_POINT('Vertex',(4.,200.,4.89842541529E-016)) ;
#89=CARTESIAN_POINT('Axis2P3D Location',(0.,200.,0.)) ;
#101=CARTESIAN_POINT('Axis2P3D Location',(0.,0.,0.)) ;
#106=CARTESIAN_POINT('Axis2P3D Location',(0.,200.,0.)) ;
#118=CARTESIAN_POINT('Axis2P3D Location',(0.,0.,0.)) ;
#128=CARTESIAN_POINT('Axis2P3D Location',(0.,200.,0.)) ;
#148=CARTESIAN_POINT('NONE',(0.,0.,0.)) ;
#149=CARTESIAN_POINT('NONE',(0.,0.,0.)) ;
#163=CARTESIAN_POINT('NONE',(0.,0.,0.)) ;
#164=CARTESIAN_POINT('NONE',(40.,0.,0.)) ;
#178=CARTESIAN_POINT('Axis2P3D Location',(0.,0.,0.)) ;
#183=CARTESIAN_POINT('Line Origine',(0.,0.958851077208,1.75516512378)) ;
#187=CARTESIAN_POINT('Vertex',(8.,0.958851077208,1.75516512378)) ;
#189=CARTESIAN_POINT('Vertex',(3.,0.958851077208,1.75516512378)) ;
#192=CARTESIAN_POINT('Axis2P3D Location',(3.,0.,0.)) ;
#196=CARTESIAN_POINT('Vertex',(3.,-0.958851077208,-1.75516512378)) ;
#199=CARTESIAN_POINT('Line Origine',(0.,-0.958851077208,-1.75516512378)) ;
#203=CARTESIAN_POINT('Vertex',(8.,-0.958851077208,-1.75516512378)) ;
#206=CARTESIAN_POINT('Axis2P3D Location',(8.,0.,0.)) ;
#218=CARTESIAN_POINT('Axis2P3D Location',(3.,0.,0.)) ;
#223=CARTESIAN_POINT('Axis2P3D Location',(8.,0.,0.)) ;
#235=CARTESIAN_POINT('Axis2P3D Location',(0.,0.,0.)) ;
#240=CARTESIAN_POINT('Line Origine',(0.,3.35597877023,6.14307793323)) ;
#244=CARTESIAN_POINT('Vertex',(3.,3.35597877023,6.14307793323)) ;
#246=CARTESIAN_POINT('Vertex',(-3.,3.35597877023,6.14307793323)) ;
#249=CARTESIAN_POINT('Axis2P3D Location',(-3.,0.,0.)) ;
#253=CARTESIAN_POINT('Vertex',(-3.,-3.35597877023,-6.14307793323)) ;
#256=CARTESIAN_POINT('Line Origine',(0.,-3.35597877023,-6.14307793323)) ;
#260=CARTESIAN_POINT('Vertex',(3.,-3.35597877023,-6.14307793323)) ;
#263=CARTESIAN_POINT('Axis2P3D Location',(3.,0.,0.)) ;
#275=CARTESIAN_POINT('Axis2P3D Location',(-3.,0.,0.)) ;
#280=CARTESIAN_POINT('Axis2P3D Location',(3.,0.,0.)) ;
#292=CARTESIAN_POINT('Line Origine',(0.,0.958851077208,1.75516512378)) ;
#296=CARTESIAN_POINT('Vertex',(-3.,0.958851077208,1.75516512378)) ;
#298=CARTESIAN_POINT('Vertex',(-8.,0.958851077208,1.75516512378)) ;
#301=CARTESIAN_POINT('Axis2P3D Location',(-8.,0.,0.)) ;
#305=CARTESIAN_POINT('Vertex',(-8.,-0.958851077208,-1.75516512378)) ;
#308=CARTESIAN_POINT('Line Origine',(0.,-0.958851077208,-1.75516512378)) ;
#312=CARTESIAN_POINT('Vertex',(-3.,-0.958851077208,-1.75516512378)) ;
#315=CARTESIAN_POINT('Axis2P3D Location',(-3.,0.,0.)) ;
#327=CARTESIAN_POINT('Axis2P3D Location',(-8.,0.,0.)) ;
#332=CARTESIAN_POINT('Axis2P3D Location',(-3.,0.,0.)) ;
#344=CARTESIAN_POINT('Axis2P3D Location',(8.,0.,-2.13162820728E-014)) ;
#354=CARTESIAN_POINT('Axis2P3D Location',(3.,0.,-2.)) ;
#368=CARTESIAN_POINT('Axis2P3D Location',(-3.,0.,-7.)) ;
#382=CARTESIAN_POINT('Axis2P3D Location',(-8.,0.,-2.)) ;
#402=CARTESIAN_POINT('NONE',(0.,0.,0.)) ;
#403=CARTESIAN_POINT('NONE',(-5.5,45.7787890344,9.52627944163)) ;
#417=CARTESIAN_POINT('NONE',(0.,0.,0.)) ;
#418=CARTESIAN_POINT('NONE',(5.50000000025,56.242205276,9.52627944207)) ;
#430=CARTESIAN_POINT('NONE',(0.,0.,0.)) ;
#431=CARTESIAN_POINT('NONE',(-5.5,139.259734215,9.52627944163)) ;
#443=CARTESIAN_POINT('NONE',(0.,0.,0.)) ;
#444=CARTESIAN_POINT('NONE',(5.50000000025,128.075082227,9.52627944207)) ;
#456=CARTESIAN_POINT('NONE',(0.,0.,0.)) ;
#457=CARTESIAN_POINT('NONE',(0.,96.79973121,-11.1043150739)) ;
#469=CARTESIAN_POINT('NONE',(0.,0.,0.)) ;
#470=CARTESIAN_POINT('NONE',(39.6663635786,96.79973121,-11.1043150739)) ;
#482=CARTESIAN_POINT('NONE',(0.,0.,0.)) ;
#483=CARTESIAN_POINT('NONE',(39.6446689705,96.79973121,11.0566371092)) ;
#62=DIRECTION('Axis2P3D Direction',(0.,1.,0.)) ;
#63=DIRECTION('Axis2P3D XDirection',(-1.,0.,0.)) ;
#67=DIRECTION('Vector Direction',(0.,1.,0.)) ;
#76=DIRECTION('Axis2P3D Direction',(0.,1.,0.)) ;
#83=DIRECTION('Vector Direction',(0.,1.,0.)) ;
#90=DIRECTION('Axis2P3D Direction',(0.,1.,0.)) ;
#102=DIRECTION('Axis2P3D Direction',(0.,1.,0.)) ;
#107=DIRECTION('Axis2P3D Direction',(0.,1.,0.)) ;
#119=DIRECTION('Axis2P3D Direction',(0.,1.,0.)) ;
#120=DIRECTION('Axis2P3D XDirection',(-1.,0.,0.)) ;
#129=DIRECTION('Axis2P3D Direction',(0.,1.,0.)) ;
#130=DIRECTION('Axis2P3D XDirection',(-1.,0.,0.)) ;
#150=DIRECTION('NONE',(1.,0.,0.)) ;
#151=DIRECTION('NONE',(0.,0.,1.)) ;
#152=DIRECTION('NONE',(1.,0.,0.)) ;
#153=DIRECTION('NONE',(0.,0.,1.)) ;
#165=DIRECTION('NONE',(1.,0.,0.)) ;
#166=DIRECTION('NONE',(0.,0.,1.)) ;
#167=DIRECTION('NONE',(1.,0.,0.)) ;
#168=DIRECTION('NONE',(0.,0.,1.)) ;
#179=DIRECTION('Axis2P3D Direction',(-1.,0.,0.)) ;
#180=DIRECTION('Axis2P3D XDirection',(0.,-0.479425538604,-0.87758256189)) ;
#184=DIRECTION('Vector Direction',(-1.,0.,0.)) ;
#193=DIRECTION('Axis2P3D Direction',(-1.,0.,0.)) ;
#200=DIRECTION('Vector Direction',(-1.,0.,0.)) ;
#207=DIRECTION('Axis2P3D Direction',(-1.,0.,0.)) ;
#219=DIRECTION('Axis2P3D Direction',(-1.,0.,0.)) ;
#224=DIRECTION('Axis2P3D Direction',(-1.,0.,0.)) ;
#236=DIRECTION('Axis2P3D Direction',(-1.,0.,0.)) ;
#237=DIRECTION('Axis2P3D XDirection',(0.,-0.479425538604,-0.87758256189)) ;
#241=DIRECTION('Vector Direction',(-1.,0.,0.)) ;
#250=DIRECTION('Axis2P3D Direction',(-1.,0.,0.)) ;
#257=DIRECTION('Vector Direction',(-1.,0.,0.)) ;
#264=DIRECTION('Axis2P3D Direction',(-1.,0.,0.)) ;
#276=DIRECTION('Axis2P3D Direction',(-1.,0.,0.)) ;
#281=DIRECTION('Axis2P3D Direction',(-1.,0.,0.)) ;
#293=DIRECTION('Vector Direction',(-1.,0.,0.)) ;
#302=DIRECTION('Axis2P3D Direction',(-1.,0.,0.)) ;
#309=DIRECTION('Vector Direction',(-1.,0.,0.)) ;
#316=DIRECTION('Axis2P3D Direction',(-1.,0.,0.)) ;
#328=DIRECTION('Axis2P3D Direction',(-1.,0.,0.)) ;
#333=DIRECTION('Axis2P3D Direction',(-1.,0.,0.)) ;
#345=DIRECTION('Axis2P3D Direction',(-1.,0.,0.)) ;
#346=DIRECTION('Axis2P3D XDirection',(0.,1.,0.)) ;
#355=DIRECTION('Axis2P3D Direction',(-1.,0.,0.)) ;
#356=DIRECTION('Axis2P3D XDirection',(0.,1.,0.)) ;
#369=DIRECTION('Axis2P3D Direction',(-1.,0.,0.)) ;
#370=DIRECTION('Axis2P3D XDirection',(0.,1.,0.)) ;
#383=DIRECTION('Axis2P3D Direction',(-1.,0.,0.)) ;
#384=DIRECTION('Axis2P3D XDirection',(0.,1.,0.)) ;
#404=DIRECTION('NONE',(1.,0.,0.)) ;
#405=DIRECTION('NONE',(0.,0.,1.)) ;
#406=DIRECTION('NONE',(0.866025403784,0.,0.5)) ;
#407=DIRECTION('NONE',(-0.5,0.,0.866025403784)) ;
#419=DIRECTION('NONE',(1.,0.,0.)) ;
#420=DIRECTION('NONE',(0.,0.,1.)) ;
#421=DIRECTION('NONE',(0.866025403784,0.,-0.5)) ;
#422=DIRECTION('NONE',(0.5,0.,0.866025403784)) ;
#432=DIRECTION('NONE',(1.,0.,0.)) ;
#433=DIRECTION('NONE',(0.,0.,1.)) ;
#434=DIRECTION('NONE',(0.866025403784,0.,0.5)) ;
#435=DIRECTION('NONE',(-0.5,0.,0.866025403784)) ;
#445=DIRECTION('NONE',(1.,0.,0.)) ;
#446=DIRECTION('NONE',(0.,0.,1.)) ;
#447=DIRECTION('NONE',(0.866025403784,0.,-0.5)) ;
#448=DIRECTION('NONE',(0.5,0.,0.866025403784)) ;
#458=DIRECTION('NONE',(1.,0.,0.)) ;
#459=DIRECTION('NONE',(0.,0.,1.)) ;
#460=DIRECTION('NONE',(1.,0.,0.)) ;
#461=DIRECTION('NONE',(0.,0.,1.)) ;
#471=DIRECTION('NONE',(1.,0.,0.)) ;
#472=DIRECTION('NONE',(0.,0.,1.)) ;
#473=DIRECTION('NONE',(1.,0.,0.)) ;
#474=DIRECTION('NONE',(0.,0.,1.)) ;
#484=DIRECTION('NONE',(1.,0.,0.)) ;
#485=DIRECTION('NONE',(0.,0.,1.)) ;
#486=DIRECTION('NONE',(1.,0.,0.)) ;
#487=DIRECTION('NONE',(0.,0.,1.)) ;
#64=AXIS2_PLACEMENT_3D('Cylinder Axis2P3D',#61,#62,#63) ;
#77=AXIS2_PLACEMENT_3D('Circle Axis2P3D',#75,#76,$) ;
#91=AXIS2_PLACEMENT_3D('Circle Axis2P3D',#89,#90,$) ;
#103=AXIS2_PLACEMENT_3D('Circle Axis2P3D',#101,#102,$) ;
#108=AXIS2_PLACEMENT_3D('Circle Axis2P3D',#106,#107,$) ;
#121=AXIS2_PLACEMENT_3D('Plane Axis2P3D',#118,#119,#120) ;
#131=AXIS2_PLACEMENT_3D('Plane Axis2P3D',#128,#129,#130) ;
#146=AXIS2_PLACEMENT_3D(' ',#149,#153,#152) ;
#147=AXIS2_PLACEMENT_3D(' ',#148,#151,#150) ;
#161=AXIS2_PLACEMENT_3D(' ',#164,#168,#167) ;
#162=AXIS2_PLACEMENT_3D(' ',#163,#166,#165) ;
#181=AXIS2_PLACEMENT_3D('Cylinder Axis2P3D',#178,#179,#180) ;
#194=AXIS2_PLACEMENT_3D('Circle Axis2P3D',#192,#193,$) ;
#208=AXIS2_PLACEMENT_3D('Circle Axis2P3D',#206,#207,$) ;
#220=AXIS2_PLACEMENT_3D('Circle Axis2P3D',#218,#219,$) ;
#225=AXIS2_PLACEMENT_3D('Circle Axis2P3D',#223,#224,$) ;
#238=AXIS2_PLACEMENT_3D('Cylinder Axis2P3D',#235,#236,#237) ;
#251=AXIS2_PLACEMENT_3D('Circle Axis2P3D',#249,#250,$) ;
#265=AXIS2_PLACEMENT_3D('Circle Axis2P3D',#263,#264,$) ;
#277=AXIS2_PLACEMENT_3D('Circle Axis2P3D',#275,#276,$) ;
#282=AXIS2_PLACEMENT_3D('Circle Axis2P3D',#280,#281,$) ;
#303=AXIS2_PLACEMENT_3D('Circle Axis2P3D',#301,#302,$) ;
#317=AXIS2_PLACEMENT_3D('Circle Axis2P3D',#315,#316,$) ;
#329=AXIS2_PLACEMENT_3D('Circle Axis2P3D',#327,#328,$) ;
#334=AXIS2_PLACEMENT_3D('Circle Axis2P3D',#332,#333,$) ;
#347=AXIS2_PLACEMENT_3D('Plane Axis2P3D',#344,#345,#346) ;
#357=AXIS2_PLACEMENT_3D('Plane Axis2P3D',#354,#355,#356) ;
#371=AXIS2_PLACEMENT_3D('Plane Axis2P3D',#368,#369,#370) ;
#385=AXIS2_PLACEMENT_3D('Plane Axis2P3D',#382,#383,#384) ;
#400=AXIS2_PLACEMENT_3D(' ',#403,#407,#406) ;
#401=AXIS2_PLACEMENT_3D(' ',#402,#405,#404) ;
#415=AXIS2_PLACEMENT_3D(' ',#418,#422,#421) ;
#416=AXIS2_PLACEMENT_3D(' ',#417,#420,#419) ;
#428=AXIS2_PLACEMENT_3D(' ',#431,#435,#434) ;
#429=AXIS2_PLACEMENT_3D(' ',#430,#433,#432) ;
#441=AXIS2_PLACEMENT_3D(' ',#444,#448,#447) ;
#442=AXIS2_PLACEMENT_3D(' ',#443,#446,#445) ;
#454=AXIS2_PLACEMENT_3D(' ',#457,#461,#460) ;
#455=AXIS2_PLACEMENT_3D(' ',#456,#459,#458) ;
#467=AXIS2_PLACEMENT_3D(' ',#470,#474,#473) ;
#468=AXIS2_PLACEMENT_3D(' ',#469,#472,#471) ;
#480=AXIS2_PLACEMENT_3D(' ',#483,#487,#486) ;
#481=AXIS2_PLACEMENT_3D(' ',#482,#485,#484) ;
#45=PRODUCT_DEFINITION_SHAPE(' ',' ',#17) ;
#59=PRODUCT_DEFINITION_SHAPE(' ',' ',#56) ;
#142=PRODUCT_DEFINITION_SHAPE(' ',' ',#141) ;
#157=PRODUCT_DEFINITION_SHAPE(' ',' ',#156) ;
#176=PRODUCT_DEFINITION_SHAPE(' ',' ',#173) ;
#396=PRODUCT_DEFINITION_SHAPE(' ',' ',#395) ;
#411=PRODUCT_DEFINITION_SHAPE(' ',' ',#410) ;
#424=PRODUCT_DEFINITION_SHAPE(' ',' ',#423) ;
#437=PRODUCT_DEFINITION_SHAPE(' ',' ',#436) ;
#450=PRODUCT_DEFINITION_SHAPE(' ',' ',#449) ;
#463=PRODUCT_DEFINITION_SHAPE(' ',' ',#462) ;
#476=PRODUCT_DEFINITION_SHAPE(' ',' ',#475) ;
#34=APPROVAL_PERSON_ORGANIZATION(#28,#24,#22) ;
#28=PERSON_AND_ORGANIZATION(#25,#26) ;
#25=PERSON(' ',' ',' ',$,$,$) ;
#26=ORGANIZATION(' ',' ',' ') ;
#24=APPROVAL(#23,' ') ;
#23=APPROVAL_STATUS('not_yet_approved') ;
#22=APPROVAL_ROLE('APPROVER') ;
#13=DATE_AND_TIME(#11,#12) ;
#12=LOCAL_TIME(13,10,40.,#10) ;
#10=COORDINATED_UNIVERSAL_TIME_OFFSET(0,0,.AHEAD.) ;
#95=ORIENTED_EDGE('',*,*,#74,.F.) ;
#96=ORIENTED_EDGE('',*,*,#81,.T.) ;
#97=ORIENTED_EDGE('',*,*,#88,.T.) ;
#98=ORIENTED_EDGE('',*,*,#93,.F.) ;
#112=ORIENTED_EDGE('',*,*,#88,.F.) ;
#113=ORIENTED_EDGE('',*,*,#105,.T.) ;
#114=ORIENTED_EDGE('',*,*,#74,.T.) ;
#115=ORIENTED_EDGE('',*,*,#110,.F.) ;
#124=ORIENTED_EDGE('',*,*,#105,.F.) ;
#125=ORIENTED_EDGE('',*,*,#81,.F.) ;
#134=ORIENTED_EDGE('',*,*,#93,.T.) ;
#135=ORIENTED_EDGE('',*,*,#110,.T.) ;
#212=ORIENTED_EDGE('',*,*,#191,.T.) ;
#213=ORIENTED_EDGE('',*,*,#198,.F.) ;
#214=ORIENTED_EDGE('',*,*,#205,.F.) ;
#215=ORIENTED_EDGE('',*,*,#210,.T.) ;
#229=ORIENTED_EDGE('',*,*,#205,.T.) ;
#230=ORIENTED_EDGE('',*,*,#222,.F.) ;
#231=ORIENTED_EDGE('',*,*,#191,.F.) ;
#232=ORIENTED_EDGE('',*,*,#227,.T.) ;
#269=ORIENTED_EDGE('',*,*,#248,.T.) ;
#270=ORIENTED_EDGE('',*,*,#255,.F.) ;
#271=ORIENTED_EDGE('',*,*,#262,.F.) ;
#272=ORIENTED_EDGE('',*,*,#267,.T.) ;
#286=ORIENTED_EDGE('',*,*,#262,.T.) ;
#287=ORIENTED_EDGE('',*,*,#279,.F.) ;
#288=ORIENTED_EDGE('',*,*,#248,.F.) ;
#289=ORIENTED_EDGE('',*,*,#284,.T.) ;
#321=ORIENTED_EDGE('',*,*,#300,.T.) ;
#322=ORIENTED_EDGE('',*,*,#307,.F.) ;
#323=ORIENTED_EDGE('',*,*,#314,.F.) ;
#324=ORIENTED_EDGE('',*,*,#319,.T.) ;
#338=ORIENTED_EDGE('',*,*,#314,.T.) ;
#339=ORIENTED_EDGE('',*,*,#331,.F.) ;
#340=ORIENTED_EDGE('',*,*,#300,.F.) ;
#341=ORIENTED_EDGE('',*,*,#336,.T.) ;
#350=ORIENTED_EDGE('',*,*,#227,.F.) ;
#351=ORIENTED_EDGE('',*,*,#210,.F.) ;
#360=ORIENTED_EDGE('',*,*,#267,.F.) ;
#361=ORIENTED_EDGE('',*,*,#284,.F.) ;
#364=ORIENTED_EDGE('',*,*,#222,.T.) ;
#365=ORIENTED_EDGE('',*,*,#198,.T.) ;
#374=ORIENTED_EDGE('',*,*,#279,.T.) ;
#375=ORIENTED_EDGE('',*,*,#255,.T.) ;
#378=ORIENTED_EDGE('',*,*,#319,.F.) ;
#379=ORIENTED_EDGE('',*,*,#336,.F.) ;
#388=ORIENTED_EDGE('',*,*,#331,.T.) ;
#389=ORIENTED_EDGE('',*,*,#307,.T.) ;
#366=FACE_BOUND('',#363,.T.) ;
#380=FACE_BOUND('',#377,.T.) ;
#60=CLOSED_SHELL('Closed Shell',(#100,#117,#127,#137)) ;
#177=CLOSED_SHELL('Closed Shell',(#217,#234,#274,#291,#326,#343,#353,#367,#381,#391)) ;
#145=ITEM_DEFINED_TRANSFORMATION(' ',' ',#147,#146) ;
#160=ITEM_DEFINED_TRANSFORMATION(' ',' ',#162,#161) ;
#399=ITEM_DEFINED_TRANSFORMATION(' ',' ',#401,#400) ;
#414=ITEM_DEFINED_TRANSFORMATION(' ',' ',#416,#415) ;
#427=ITEM_DEFINED_TRANSFORMATION(' ',' ',#429,#428) ;
#440=ITEM_DEFINED_TRANSFORMATION(' ',' ',#442,#441) ;
#453=ITEM_DEFINED_TRANSFORMATION(' ',' ',#455,#454) ;
#466=ITEM_DEFINED_TRANSFORMATION(' ',' ',#468,#467) ;
#479=ITEM_DEFINED_TRANSFORMATION(' ',' ',#481,#480) ;
#68=VECTOR('Line Direction',#67,1.) ;
#84=VECTOR('Line Direction',#83,1.) ;
#185=VECTOR('Line Direction',#184,1.) ;
#201=VECTOR('Line Direction',#200,1.) ;
#242=VECTOR('Line Direction',#241,1.) ;
#258=VECTOR('Line Direction',#257,1.) ;
#294=VECTOR('Line Direction',#293,1.) ;
#310=VECTOR('Line Direction',#309,1.) ;
#139=ADVANCED_BREP_SHAPE_REPRESENTATION('NONE',(#138),#51) ;
#393=ADVANCED_BREP_SHAPE_REPRESENTATION('NONE',(#392),#51) ;
#44=SHAPE_REPRESENTATION(' ',(#146,#161,#400,#415,#428,#441,#454,#467,#480),#51) ;
#52=SHAPE_REPRESENTATION(' ',(#147,#162),#155) ;
#169=SHAPE_REPRESENTATION(' ',(#401,#416,#429,#442,#455,#468,#481),#409) ;
#100=ADVANCED_FACE('',(#99),#65,.T.) ;
#117=ADVANCED_FACE('',(#116),#65,.T.) ;
#127=ADVANCED_FACE('',(#126),#122,.F.) ;
#137=ADVANCED_FACE('',(#136),#132,.T.) ;
#217=ADVANCED_FACE('',(#216),#182,.T.) ;
#234=ADVANCED_FACE('',(#233),#182,.T.) ;
#274=ADVANCED_FACE('',(#273),#239,.T.) ;
#291=ADVANCED_FACE('',(#290),#239,.T.) ;
#326=ADVANCED_FACE('',(#325),#182,.T.) ;
#343=ADVANCED_FACE('',(#342),#182,.T.) ;
#353=ADVANCED_FACE('',(#352),#348,.F.) ;
#367=ADVANCED_FACE('',(#362,#366),#358,.F.) ;
#381=ADVANCED_FACE('',(#376,#380),#372,.T.) ;
#391=ADVANCED_FACE('',(#390),#386,.T.) ;
#4=APPLICATION_PROTOCOL_DEFINITION('international standard','config_control_design',1994,#1) ;
#35=APPROVAL_DATE_TIME(#13,#24) ;
#138=MANIFOLD_SOLID_BREP('Hauptk\X2\00F6\X0\rper',#60) ;
#392=MANIFOLD_SOLID_BREP('Hauptk\X2\00F6\X0\rper',#177) ;
#11=CALENDAR_DATE(2010,22,8) ;
#33=CC_DESIGN_APPROVAL(#24,(#19,#6,#17)) ;
#21=CC_DESIGN_DATE_AND_TIME_ASSIGNMENT(#13,#20,(#19)) ;
#32=CC_DESIGN_DATE_AND_TIME_ASSIGNMENT(#13,#31,(#17)) ;
#20=DATE_TIME_ROLE('classification_date') ;
#31=DATE_TIME_ROLE('creation_date') ;
#30=CC_DESIGN_PERSON_AND_ORGANIZATION_ASSIGNMENT(#28,#29,(#19)) ;
#36=CC_DESIGN_PERSON_AND_ORGANIZATION_ASSIGNMENT(#28,#37,(#6)) ;
#38=CC_DESIGN_PERSON_AND_ORGANIZATION_ASSIGNMENT(#28,#39,(#6,#17)) ;
#40=CC_DESIGN_PERSON_AND_ORGANIZATION_ASSIGNMENT(#28,#41,(#5)) ;
#29=PERSON_AND_ORGANIZATION_ROLE('classification_officer') ;
#37=PERSON_AND_ORGANIZATION_ROLE('design_supplier') ;
#39=PERSON_AND_ORGANIZATION_ROLE('creator') ;
#41=PERSON_AND_ORGANIZATION_ROLE('design_owner') ;
#42=CC_DESIGN_SECURITY_CLASSIFICATION(#19,(#6,#141,#156,#395,#410,#423,#436,#449,#462,#475)) ;
#58=DOCUMENT('1','Rod.CATPart','CATPart document',#57) ;
#175=DOCUMENT('2','Bearing.CATPart','CATPart document',#174) ;
#57=DOCUMENT_TYPE('') ;
#174=DOCUMENT_TYPE('') ;
#78=CIRCLE('generated circle',#77,4.) ;
#92=CIRCLE('generated circle',#91,4.) ;
#104=CIRCLE('generated circle',#103,4.) ;
#109=CIRCLE('generated circle',#108,4.) ;
#195=CIRCLE('generated circle',#194,2.) ;
#209=CIRCLE('generated circle',#208,2.) ;
#221=CIRCLE('generated circle',#220,2.) ;
#226=CIRCLE('generated circle',#225,2.) ;
#252=CIRCLE('generated circle',#251,7.) ;
#266=CIRCLE('generated circle',#265,7.) ;
#278=CIRCLE('generated circle',#277,7.) ;
#283=CIRCLE('generated circle',#282,7.) ;
#304=CIRCLE('generated circle',#303,2.) ;
#318=CIRCLE('generated circle',#317,2.) ;
#330=CIRCLE('generated circle',#329,2.) ;
#335=CIRCLE('generated circle',#334,2.) ;
#143=CONTEXT_DEPENDENT_SHAPE_REPRESENTATION(#144,#142) ;
#158=CONTEXT_DEPENDENT_SHAPE_REPRESENTATION(#159,#157) ;
#397=CONTEXT_DEPENDENT_SHAPE_REPRESENTATION(#398,#396) ;
#412=CONTEXT_DEPENDENT_SHAPE_REPRESENTATION(#413,#411) ;
#425=CONTEXT_DEPENDENT_SHAPE_REPRESENTATION(#426,#424) ;
#438=CONTEXT_DEPENDENT_SHAPE_REPRESENTATION(#439,#437) ;
#451=CONTEXT_DEPENDENT_SHAPE_REPRESENTATION(#452,#450) ;
#464=CONTEXT_DEPENDENT_SHAPE_REPRESENTATION(#465,#463) ;
#477=CONTEXT_DEPENDENT_SHAPE_REPRESENTATION(#478,#476) ;
#140=SHAPE_REPRESENTATION_RELATIONSHIP(' ',' ',#52,#139) ;
#394=SHAPE_REPRESENTATION_RELATIONSHIP(' ',' ',#169,#393) ;
#65=CYLINDRICAL_SURFACE('generated cylinder',#64,4.) ;
#182=CYLINDRICAL_SURFACE('generated cylinder',#181,2.) ;
#239=CYLINDRICAL_SURFACE('generated cylinder',#238,7.) ;
#3=DESIGN_CONTEXT(' ',#1,'design') ;
#74=EDGE_CURVE('',#71,#73,#69,.T.) ;
#81=EDGE_CURVE('',#71,#80,#78,.T.) ;
#88=EDGE_CURVE('',#80,#87,#85,.T.) ;
#93=EDGE_CURVE('',#73,#87,#92,.T.) ;
#105=EDGE_CURVE('',#80,#71,#104,.T.) ;
#110=EDGE_CURVE('',#87,#73,#109,.T.) ;
#191=EDGE_CURVE('',#188,#190,#186,.T.) ;
#198=EDGE_CURVE('',#197,#190,#195,.T.) ;
#205=EDGE_CURVE('',#204,#197,#202,.T.) ;
#210=EDGE_CURVE('',#204,#188,#209,.T.) ;
#222=EDGE_CURVE('',#190,#197,#221,.T.) ;
#227=EDGE_CURVE('',#188,#204,#226,.T.) ;
#248=EDGE_CURVE('',#245,#247,#243,.T.) ;
#255=EDGE_CURVE('',#254,#247,#252,.T.) ;
#262=EDGE_CURVE('',#261,#254,#259,.T.) ;
#267=EDGE_CURVE('',#261,#245,#266,.T.) ;
#279=EDGE_CURVE('',#247,#254,#278,.T.) ;
#284=EDGE_CURVE('',#245,#261,#283,.T.) ;
#300=EDGE_CURVE('',#297,#299,#295,.T.) ;
#307=EDGE_CURVE('',#306,#299,#304,.T.) ;
#314=EDGE_CURVE('',#313,#306,#311,.T.) ;
#319=EDGE_CURVE('',#313,#297,#318,.T.) ;
#331=EDGE_CURVE('',#299,#306,#330,.T.) ;
#336=EDGE_CURVE('',#297,#313,#335,.T.) ;
#94=EDGE_LOOP('',(#95,#96,#97,#98)) ;
#111=EDGE_LOOP('',(#112,#113,#114,#115)) ;
#123=EDGE_LOOP('',(#124,#125)) ;
#133=EDGE_LOOP('',(#134,#135)) ;
#211=EDGE_LOOP('',(#212,#213,#214,#215)) ;
#228=EDGE_LOOP('',(#229,#230,#231,#232)) ;
#268=EDGE_LOOP('',(#269,#270,#271,#272)) ;
#285=EDGE_LOOP('',(#286,#287,#288,#289)) ;
#320=EDGE_LOOP('',(#321,#322,#323,#324)) ;
#337=EDGE_LOOP('',(#338,#339,#340,#341)) ;
#349=EDGE_LOOP('',(#350,#351)) ;
#359=EDGE_LOOP('',(#360,#361)) ;
#363=EDGE_LOOP('',(#364,#365)) ;
#373=EDGE_LOOP('',(#374,#375)) ;
#377=EDGE_LOOP('',(#378,#379)) ;
#387=EDGE_LOOP('',(#388,#389)) ;
#99=FACE_OUTER_BOUND('',#94,.T.) ;
#116=FACE_OUTER_BOUND('',#111,.T.) ;
#126=FACE_OUTER_BOUND('',#123,.T.) ;
#136=FACE_OUTER_BOUND('',#133,.T.) ;
#216=FACE_OUTER_BOUND('',#211,.T.) ;
#233=FACE_OUTER_BOUND('',#228,.T.) ;
#273=FACE_OUTER_BOUND('',#268,.T.) ;
#290=FACE_OUTER_BOUND('',#285,.T.) ;
#325=FACE_OUTER_BOUND('',#320,.T.) ;
#342=FACE_OUTER_BOUND('',#337,.T.) ;
#352=FACE_OUTER_BOUND('',#349,.T.) ;
#362=FACE_OUTER_BOUND('',#359,.T.) ;
#376=FACE_OUTER_BOUND('',#373,.T.) ;
#390=FACE_OUTER_BOUND('',#387,.T.) ;
#50=UNCERTAINTY_MEASURE_WITH_UNIT(LENGTH_MEASURE(0.005),#46,'distance_accuracy_value','CONFUSED CURVE UNCERTAINTY') ;
#154=UNCERTAINTY_MEASURE_WITH_UNIT(LENGTH_MEASURE(0.005),#46,'distance_accuracy_value','CONFUSED CURVE UNCERTAINTY') ;
#408=UNCERTAINTY_MEASURE_WITH_UNIT(LENGTH_MEASURE(0.005),#46,'distance_accuracy_value','CONFUSED CURVE UNCERTAINTY') ;
#69=LINE('Line',#66,#68) ;
#85=LINE('Line',#82,#84) ;
#186=LINE('Line',#183,#185) ;
#202=LINE('Line',#199,#201) ;
#243=LINE('Line',#240,#242) ;
#259=LINE('Line',#256,#258) ;
#295=LINE('Line',#292,#294) ;
#311=LINE('Line',#308,#310) ;
#2=MECHANICAL_CONTEXT(' ',#1,'mechanical') ;
#141=NEXT_ASSEMBLY_USAGE_OCCURRENCE('Left rod','Left rod','',#17,#56,' ') ;
#156=NEXT_ASSEMBLY_USAGE_OCCURRENCE('Right rod','Right rod','',#17,#56,' ') ;
#395=NEXT_ASSEMBLY_USAGE_OCCURRENCE('Bearing 1','Bearing 1','',#17,#173,' ') ;
#410=NEXT_ASSEMBLY_USAGE_OCCURRENCE('Bearing 2','Bearing 2','',#17,#173,' ') ;
#423=NEXT_ASSEMBLY_USAGE_OCCURRENCE('Ball bearing.1','Ball bearing.1','',#17,#173,' ') ;
#436=NEXT_ASSEMBLY_USAGE_OCCURRENCE('Ball bearing.2','Ball bearing.2','',#17,#173,' ') ;
#449=NEXT_ASSEMBLY_USAGE_OCCURRENCE('Ball bearing.3','Ball bearing.3','',#17,#173,' ') ;
#462=NEXT_ASSEMBLY_USAGE_OCCURRENCE('Ball bearing.4','Ball bearing.4','',#17,#173,' ') ;
#475=NEXT_ASSEMBLY_USAGE_OCCURRENCE('Ball bearing.5','Ball bearing.5','',#17,#173,' ') ;
#27=PERSONAL_ADDRESS(' ',' ',' ',' ',' ',' ',' ',' ',' ',' ',' ',' ',(#25),' ') ;
#122=PLANE('Plane',#121) ;
#132=PLANE('Plane',#131) ;
#348=PLANE('Plane',#347) ;
#358=PLANE('Plane',#357) ;
#372=PLANE('Plane',#371) ;
#386=PLANE('Plane',#385) ;
#48=PLANE_ANGLE_MEASURE_WITH_UNIT(PLANE_ANGLE_MEASURE(0.0174532925199),#47) ;
#7=PRODUCT_CATEGORY('part',$) ;
#14=PRODUCT_CATEGORY('part',$) ;
#9=PRODUCT_CATEGORY_RELATIONSHIP(' ',' ',#7,#8) ;
#16=PRODUCT_CATEGORY_RELATIONSHIP(' ',' ',#14,#15) ;
#6=PRODUCT_DEFINITION_FORMATION_WITH_SPECIFIED_SOURCE('',' ',#5,.NOT_KNOWN.) ;
#55=PRODUCT_DEFINITION_FORMATION_WITH_SPECIFIED_SOURCE('',' ',#54,.NOT_KNOWN.) ;
#172=PRODUCT_DEFINITION_FORMATION_WITH_SPECIFIED_SOURCE('',' ',#171,.NOT_KNOWN.) ;
#56=PRODUCT_DEFINITION_WITH_ASSOCIATED_DOCUMENTS('Rod',' ',#55,#3,(#58)) ;
#173=PRODUCT_DEFINITION_WITH_ASSOCIATED_DOCUMENTS('Ball bearing',' ',#172,#3,(#175)) ;
#8=PRODUCT_RELATED_PRODUCT_CATEGORY('detail',$,(#54,#171)) ;
#15=PRODUCT_RELATED_PRODUCT_CATEGORY('part',$,(#5)) ;
#43=SHAPE_DEFINITION_REPRESENTATION(#45,#44) ;
#53=SHAPE_DEFINITION_REPRESENTATION(#59,#52) ;
#170=SHAPE_DEFINITION_REPRESENTATION(#176,#169) ;
#71=VERTEX_POINT('',#70) ;
#73=VERTEX_POINT('',#72) ;
#80=VERTEX_POINT('',#79) ;
#87=VERTEX_POINT('',#86) ;
#188=VERTEX_POINT('',#187) ;
#190=VERTEX_POINT('',#189) ;
#197=VERTEX_POINT('',#196) ;
#204=VERTEX_POINT('',#203) ;
#245=VERTEX_POINT('',#244) ;
#247=VERTEX_POINT('',#246) ;
#254=VERTEX_POINT('',#253) ;
#261=VERTEX_POINT('',#260) ;
#297=VERTEX_POINT('',#296) ;
#299=VERTEX_POINT('',#298) ;
#306=VERTEX_POINT('',#305) ;
#313=VERTEX_POINT('',#312) ;
#46=(LENGTH_UNIT()NAMED_UNIT(*)SI_UNIT(.MILLI.,.METRE.)) ;
#47=(NAMED_UNIT(*)PLANE_ANGLE_UNIT()SI_UNIT($,.RADIAN.)) ;
#49=(NAMED_UNIT(*)SI_UNIT($,.STERADIAN.)SOLID_ANGLE_UNIT()) ;
#51=(GEOMETRIC_REPRESENTATION_CONTEXT(3)GLOBAL_UNCERTAINTY_ASSIGNED_CONTEXT((#50))GLOBAL_UNIT_ASSIGNED_CONTEXT((#46,#47,#49))REPRESENTATION_CONTEXT(' ',' ')) ;
#155=(GEOMETRIC_REPRESENTATION_CONTEXT(3)GLOBAL_UNCERTAINTY_ASSIGNED_CONTEXT((#154))GLOBAL_UNIT_ASSIGNED_CONTEXT((#46,#47,#49))REPRESENTATION_CONTEXT(' ',' ')) ;
#409=(GEOMETRIC_REPRESENTATION_CONTEXT(3)GLOBAL_UNCERTAINTY_ASSIGNED_CONTEXT((#408))GLOBAL_UNIT_ASSIGNED_CONTEXT((#46,#47,#49))REPRESENTATION_CONTEXT(' ',' ')) ;
#144=(REPRESENTATION_RELATIONSHIP(' ',' ',#52,#44)REPRESENTATION_RELATIONSHIP_WITH_TRANSFORMATION(#145)SHAPE_REPRESENTATION_RELATIONSHIP()) ;
#159=(REPRESENTATION_RELATIONSHIP(' ',' ',#52,#44)REPRESENTATION_RELATIONSHIP_WITH_TRANSFORMATION(#160)SHAPE_REPRESENTATION_RELATIONSHIP()) ;
#398=(REPRESENTATION_RELATIONSHIP(' ',' ',#169,#44)REPRESENTATION_RELATIONSHIP_WITH_TRANSFORMATION(#399)SHAPE_REPRESENTATION_RELATIONSHIP()) ;
#413=(REPRESENTATION_RELATIONSHIP(' ',' ',#169,#44)REPRESENTATION_RELATIONSHIP_WITH_TRANSFORMATION(#414)SHAPE_REPRESENTATION_RELATIONSHIP()) ;
#426=(REPRESENTATION_RELATIONSHIP(' ',' ',#169,#44)REPRESENTATION_RELATIONSHIP_WITH_TRANSFORMATION(#427)SHAPE_REPRESENTATION_RELATIONSHIP()) ;
#439=(REPRESENTATION_RELATIONSHIP(' ',' ',#169,#44)REPRESENTATION_RELATIONSHIP_WITH_TRANSFORMATION(#440)SHAPE_REPRESENTATION_RELATIONSHIP()) ;
#452=(REPRESENTATION_RELATIONSHIP(' ',' ',#169,#44)REPRESENTATION_RELATIONSHIP_WITH_TRANSFORMATION(#453)SHAPE_REPRESENTATION_RELATIONSHIP()) ;
#465=(REPRESENTATION_RELATIONSHIP(' ',' ',#169,#44)REPRESENTATION_RELATIONSHIP_WITH_TRANSFORMATION(#466)SHAPE_REPRESENTATION_RELATIONSHIP()) ;
#478=(REPRESENTATION_RELATIONSHIP(' ',' ',#169,#44)REPRESENTATION_RELATIONSHIP_WITH_TRANSFORMATION(#479)SHAPE_REPRESENTATION_RELATIONSHIP()) ;
ENDSEC;
END-ISO-10303-21;
