ISO-10303-21;
HEADER;
FILE_DESCRIPTION( ( 'Unknown' ), '1' );
FILE_NAME( 'K:/drafting/polar printer/link1.stp', 'Unknown', ( 'Unknown' ), ( 'Unknown' ), 'XStep 1.0', 'Unknown', '  ' );
FILE_SCHEMA( ( 'automotive_design' ) );
ENDSEC;
DATA;
#1 = MECHANICAL_DESIGN_GEOMETRIC_PRESENTATION_REPRESENTATION( ' ', ( #10, #11, #12, #13, #14, #15, #16, #17 ), #6 );
#2 = PRODUCT_DEFINITION_CONTEXT( '', #18, 'design' );
#3 = APPLICATION_PROTOCOL_DEFINITION( 'INTERNATIONAL STANDARD', 'automotive_design', 1994, #18 );
#4 = PRODUCT_CATEGORY_RELATIONSHIP( 'NONE', 'NONE', #19, #20 );
#5 = SHAPE_DEFINITION_REPRESENTATION( #21, #22 );
#6 =  ( GEOMETRIC_REPRESENTATION_CONTEXT( 3 )GLOBAL_UNCERTAINTY_ASSIGNED_CONTEXT( ( #25 ) )GLOBAL_UNIT_ASSIGNED_CONTEXT( ( #27, #28, #29 ) )REPRESENTATION_CONTEXT( 'NONE', 'WORKSPACE' ) );
#10 = STYLED_ITEM( '', ( #31 ), #32 );
#11 = STYLED_ITEM( '', ( #33 ), #34 );
#12 = STYLED_ITEM( '', ( #35 ), #36 );
#13 = STYLED_ITEM( '', ( #37 ), #38 );
#14 = STYLED_ITEM( '', ( #39 ), #40 );
#15 = STYLED_ITEM( '', ( #41 ), #42 );
#16 = STYLED_ITEM( '', ( #43 ), #44 );
#17 = STYLED_ITEM( '', ( #45 ), #46 );
#18 = APPLICATION_CONTEXT( ' ' );
#19 = PRODUCT_CATEGORY( 'part', 'NONE' );
#20 = PRODUCT_RELATED_PRODUCT_CATEGORY( 'detail', ' ', ( #47 ) );
#21 = PRODUCT_DEFINITION_SHAPE( 'NONE', 'NONE', #48 );
#22 = ADVANCED_BREP_SHAPE_REPRESENTATION( '1', ( #49, #50 ), #6 );
#25 = UNCERTAINTY_MEASURE_WITH_UNIT( LENGTH_MEASURE( 0.00100000000000000 ), #27, '', '' );
#27 =  ( CONVERSION_BASED_UNIT( 'MILLIMETRE', #53 )LENGTH_UNIT(  )NAMED_UNIT( #56 ) );
#28 =  ( NAMED_UNIT( #58 )PLANE_ANGLE_UNIT(  )SI_UNIT( $, .RADIAN. ) );
#29 =  ( NAMED_UNIT( #58 )SOLID_ANGLE_UNIT(  )SI_UNIT( $, .STERADIAN. ) );
#31 = PRESENTATION_STYLE_ASSIGNMENT( ( #64 ) );
#32 = ADVANCED_FACE( '', ( #65 ), #66, .T. );
#33 = PRESENTATION_STYLE_ASSIGNMENT( ( #67 ) );
#34 = ADVANCED_FACE( '', ( #68, #69, #70 ), #71, .F. );
#35 = PRESENTATION_STYLE_ASSIGNMENT( ( #72 ) );
#36 = ADVANCED_FACE( '', ( #73, #74, #75 ), #76, .T. );
#37 = PRESENTATION_STYLE_ASSIGNMENT( ( #77 ) );
#38 = ADVANCED_FACE( '', ( #78 ), #79, .T. );
#39 = PRESENTATION_STYLE_ASSIGNMENT( ( #80 ) );
#40 = ADVANCED_FACE( '', ( #81 ), #82, .T. );
#41 = PRESENTATION_STYLE_ASSIGNMENT( ( #83 ) );
#42 = ADVANCED_FACE( '', ( #84 ), #85, .T. );
#43 = PRESENTATION_STYLE_ASSIGNMENT( ( #86 ) );
#44 = ADVANCED_FACE( '', ( #87, #88 ), #89, .F. );
#45 = PRESENTATION_STYLE_ASSIGNMENT( ( #90 ) );
#46 = ADVANCED_FACE( '', ( #91, #92 ), #93, .F. );
#47 = PRODUCT( '1', '1', 'PART-1-DESC', ( #94 ) );
#48 = PRODUCT_DEFINITION( 'NONE', 'NONE', #95, #2 );
#49 = MANIFOLD_SOLID_BREP( '1', #96 );
#50 = AXIS2_PLACEMENT_3D( '', #97, #98, #99 );
#53 = LENGTH_MEASURE_WITH_UNIT( LENGTH_MEASURE( 1.00000000000000 ), #100 );
#56 = DIMENSIONAL_EXPONENTS( 1.00000000000000, 0.000000000000000, 0.000000000000000, 0.000000000000000, 0.000000000000000, 0.000000000000000, 0.000000000000000 );
#58 = DIMENSIONAL_EXPONENTS( 0.000000000000000, 0.000000000000000, 0.000000000000000, 0.000000000000000, 0.000000000000000, 0.000000000000000, 0.000000000000000 );
#64 = SURFACE_STYLE_USAGE( .BOTH., #101 );
#65 = FACE_OUTER_BOUND( '', #102, .T. );
#66 = PLANE( '', #103 );
#67 = SURFACE_STYLE_USAGE( .BOTH., #104 );
#68 = FACE_BOUND( '', #105, .T. );
#69 = FACE_BOUND( '', #106, .T. );
#70 = FACE_OUTER_BOUND( '', #107, .T. );
#71 = PLANE( '', #108 );
#72 = SURFACE_STYLE_USAGE( .BOTH., #109 );
#73 = FACE_BOUND( '', #110, .T. );
#74 = FACE_BOUND( '', #111, .T. );
#75 = FACE_OUTER_BOUND( '', #112, .T. );
#76 = PLANE( '', #113 );
#77 = SURFACE_STYLE_USAGE( .BOTH., #114 );
#78 = FACE_OUTER_BOUND( '', #115, .T. );
#79 = PLANE( '', #116 );
#80 = SURFACE_STYLE_USAGE( .BOTH., #117 );
#81 = FACE_OUTER_BOUND( '', #118, .T. );
#82 = CYLINDRICAL_SURFACE( '', #119, 6.35000000000000 );
#83 = SURFACE_STYLE_USAGE( .BOTH., #120 );
#84 = FACE_OUTER_BOUND( '', #121, .T. );
#85 = CYLINDRICAL_SURFACE( '', #122, 6.35000000000000 );
#86 = SURFACE_STYLE_USAGE( .BOTH., #123 );
#87 = FACE_OUTER_BOUND( '', #124, .T. );
#88 = FACE_OUTER_BOUND( '', #125, .T. );
#89 = CYLINDRICAL_SURFACE( '', #126, 3.17500000000000 );
#90 = SURFACE_STYLE_USAGE( .BOTH., #127 );
#91 = FACE_OUTER_BOUND( '', #128, .T. );
#92 = FACE_OUTER_BOUND( '', #129, .T. );
#93 = CYLINDRICAL_SURFACE( '', #130, 3.17500000000000 );
#94 = PRODUCT_CONTEXT( '', #18, 'mechanical' );
#95 = PRODUCT_DEFINITION_FORMATION_WITH_SPECIFIED_SOURCE( ' ', 'NONE', #47, .NOT_KNOWN. );
#96 = CLOSED_SHELL( '', ( #40, #42, #38, #34, #44, #36, #46, #32 ) );
#97 = CARTESIAN_POINT( '', ( 0.000000000000000, 0.000000000000000, 0.000000000000000 ) );
#98 = DIRECTION( '', ( 0.000000000000000, 0.000000000000000, 1.00000000000000 ) );
#99 = DIRECTION( '', ( 1.00000000000000, 0.000000000000000, 0.000000000000000 ) );
#100 =  ( NAMED_UNIT( #56 )LENGTH_UNIT(  )SI_UNIT( .MILLI., .METRE. ) );
#101 = SURFACE_SIDE_STYLE( '', ( #132 ) );
#102 = EDGE_LOOP( '', ( #133, #134, #135, #136 ) );
#103 = AXIS2_PLACEMENT_3D( '', #137, #138, #139 );
#104 = SURFACE_SIDE_STYLE( '', ( #140 ) );
#105 = EDGE_LOOP( '', ( #141 ) );
#106 = EDGE_LOOP( '', ( #142 ) );
#107 = EDGE_LOOP( '', ( #143, #144, #145, #146 ) );
#108 = AXIS2_PLACEMENT_3D( '', #147, #148, #149 );
#109 = SURFACE_SIDE_STYLE( '', ( #150 ) );
#110 = EDGE_LOOP( '', ( #151 ) );
#111 = EDGE_LOOP( '', ( #152 ) );
#112 = EDGE_LOOP( '', ( #153, #154, #155, #156 ) );
#113 = AXIS2_PLACEMENT_3D( '', #157, #158, #159 );
#114 = SURFACE_SIDE_STYLE( '', ( #160 ) );
#115 = EDGE_LOOP( '', ( #161, #162, #163, #164 ) );
#116 = AXIS2_PLACEMENT_3D( '', #165, #166, #167 );
#117 = SURFACE_SIDE_STYLE( '', ( #168 ) );
#118 = EDGE_LOOP( '', ( #169, #170, #171, #172 ) );
#119 = AXIS2_PLACEMENT_3D( '', #173, #174, #175 );
#120 = SURFACE_SIDE_STYLE( '', ( #176 ) );
#121 = EDGE_LOOP( '', ( #177, #178, #179, #180 ) );
#122 = AXIS2_PLACEMENT_3D( '', #181, #182, #183 );
#123 = SURFACE_SIDE_STYLE( '', ( #184 ) );
#124 = EDGE_LOOP( '', ( #185 ) );
#125 = EDGE_LOOP( '', ( #186 ) );
#126 = AXIS2_PLACEMENT_3D( '', #187, #188, #189 );
#127 = SURFACE_SIDE_STYLE( '', ( #190 ) );
#128 = EDGE_LOOP( '', ( #191 ) );
#129 = EDGE_LOOP( '', ( #192 ) );
#130 = AXIS2_PLACEMENT_3D( '', #193, #194, #195 );
#132 = SURFACE_STYLE_FILL_AREA( #196 );
#133 = ORIENTED_EDGE( '', *, *, #197, .F. );
#134 = ORIENTED_EDGE( '', *, *, #198, .F. );
#135 = ORIENTED_EDGE( '', *, *, #199, .T. );
#136 = ORIENTED_EDGE( '', *, *, #200, .T. );
#137 = CARTESIAN_POINT( '', ( 6.35000000000000, 50.8000000000000, 3.17500000000000 ) );
#138 = DIRECTION( '', ( 1.00000000000000, 0.000000000000000, 0.000000000000000 ) );
#139 = DIRECTION( '', ( 0.000000000000000, 0.000000000000000, -1.00000000000000 ) );
#140 = SURFACE_STYLE_FILL_AREA( #201 );
#141 = ORIENTED_EDGE( '', *, *, #202, .T. );
#142 = ORIENTED_EDGE( '', *, *, #203, .T. );
#143 = ORIENTED_EDGE( '', *, *, #204, .F. );
#144 = ORIENTED_EDGE( '', *, *, #199, .F. );
#145 = ORIENTED_EDGE( '', *, *, #205, .F. );
#146 = ORIENTED_EDGE( '', *, *, #206, .F. );
#147 = CARTESIAN_POINT( '', ( 0.000000000000000, 0.000000000000000, 3.17500000000000 ) );
#148 = DIRECTION( '', ( 0.000000000000000, 0.000000000000000, -1.00000000000000 ) );
#149 = DIRECTION( '', ( -1.00000000000000, 0.000000000000000, 0.000000000000000 ) );
#150 = SURFACE_STYLE_FILL_AREA( #207 );
#151 = ORIENTED_EDGE( '', *, *, #208, .F. );
#152 = ORIENTED_EDGE( '', *, *, #209, .F. );
#153 = ORIENTED_EDGE( '', *, *, #210, .T. );
#154 = ORIENTED_EDGE( '', *, *, #211, .T. );
#155 = ORIENTED_EDGE( '', *, *, #212, .T. );
#156 = ORIENTED_EDGE( '', *, *, #197, .T. );
#157 = CARTESIAN_POINT( '', ( 0.000000000000000, 0.000000000000000, 0.000000000000000 ) );
#158 = DIRECTION( '', ( 0.000000000000000, 0.000000000000000, -1.00000000000000 ) );
#159 = DIRECTION( '', ( -1.00000000000000, 0.000000000000000, 0.000000000000000 ) );
#160 = SURFACE_STYLE_FILL_AREA( #213 );
#161 = ORIENTED_EDGE( '', *, *, #211, .F. );
#162 = ORIENTED_EDGE( '', *, *, #214, .F. );
#163 = ORIENTED_EDGE( '', *, *, #206, .T. );
#164 = ORIENTED_EDGE( '', *, *, #215, .T. );
#165 = CARTESIAN_POINT( '', ( -6.35000000000000, 0.000000000000000, 3.17500000000000 ) );
#166 = DIRECTION( '', ( -1.00000000000000, 0.000000000000000, 0.000000000000000 ) );
#167 = DIRECTION( '', ( 0.000000000000000, 0.000000000000000, 1.00000000000000 ) );
#168 = SURFACE_STYLE_FILL_AREA( #216 );
#169 = ORIENTED_EDGE( '', *, *, #210, .F. );
#170 = ORIENTED_EDGE( '', *, *, #200, .F. );
#171 = ORIENTED_EDGE( '', *, *, #204, .T. );
#172 = ORIENTED_EDGE( '', *, *, #214, .T. );
#173 = CARTESIAN_POINT( '', ( 0.000000000000000, 0.000000000000000, 3.17500000000000 ) );
#174 = DIRECTION( '', ( -0.000000000000000, -0.000000000000000, 1.00000000000000 ) );
#175 = DIRECTION( '', ( -1.00000000000000, 0.000000000000000, 0.000000000000000 ) );
#176 = SURFACE_STYLE_FILL_AREA( #217 );
#177 = ORIENTED_EDGE( '', *, *, #212, .F. );
#178 = ORIENTED_EDGE( '', *, *, #215, .F. );
#179 = ORIENTED_EDGE( '', *, *, #205, .T. );
#180 = ORIENTED_EDGE( '', *, *, #198, .T. );
#181 = CARTESIAN_POINT( '', ( 2.16840434497101E-016, 50.8000000000000, 3.17500000000000 ) );
#182 = DIRECTION( '', ( -0.000000000000000, -0.000000000000000, 1.00000000000000 ) );
#183 = DIRECTION( '', ( -1.00000000000000, 0.000000000000000, 0.000000000000000 ) );
#184 = SURFACE_STYLE_FILL_AREA( #218 );
#185 = ORIENTED_EDGE( '', *, *, #202, .F. );
#186 = ORIENTED_EDGE( '', *, *, #208, .T. );
#187 = CARTESIAN_POINT( '', ( 2.16840434497101E-016, 50.8000000000000, 3.17500000000000 ) );
#188 = DIRECTION( '', ( -0.000000000000000, -0.000000000000000, 1.00000000000000 ) );
#189 = DIRECTION( '', ( -1.00000000000000, 0.000000000000000, 0.000000000000000 ) );
#190 = SURFACE_STYLE_FILL_AREA( #219 );
#191 = ORIENTED_EDGE( '', *, *, #203, .F. );
#192 = ORIENTED_EDGE( '', *, *, #209, .T. );
#193 = CARTESIAN_POINT( '', ( 0.000000000000000, 0.000000000000000, 3.17500000000000 ) );
#194 = DIRECTION( '', ( -0.000000000000000, -0.000000000000000, 1.00000000000000 ) );
#195 = DIRECTION( '', ( -1.00000000000000, 0.000000000000000, 0.000000000000000 ) );
#196 = FILL_AREA_STYLE( '', ( #220 ) );
#197 = EDGE_CURVE( '', #221, #222, #223, .T. );
#198 = EDGE_CURVE( '', #224, #221, #225, .T. );
#199 = EDGE_CURVE( '', #224, #226, #227, .T. );
#200 = EDGE_CURVE( '', #226, #222, #228, .T. );
#201 = FILL_AREA_STYLE( '', ( #229 ) );
#202 = EDGE_CURVE( '', #230, #230, #231, .T. );
#203 = EDGE_CURVE( '', #232, #232, #233, .T. );
#204 = EDGE_CURVE( '', #226, #234, #235, .T. );
#205 = EDGE_CURVE( '', #236, #224, #237, .T. );
#206 = EDGE_CURVE( '', #234, #236, #238, .T. );
#207 = FILL_AREA_STYLE( '', ( #239 ) );
#208 = EDGE_CURVE( '', #240, #240, #241, .T. );
#209 = EDGE_CURVE( '', #242, #242, #243, .T. );
#210 = EDGE_CURVE( '', #222, #244, #245, .T. );
#211 = EDGE_CURVE( '', #244, #246, #247, .T. );
#212 = EDGE_CURVE( '', #246, #221, #248, .T. );
#213 = FILL_AREA_STYLE( '', ( #249 ) );
#214 = EDGE_CURVE( '', #234, #244, #250, .T. );
#215 = EDGE_CURVE( '', #236, #246, #251, .T. );
#216 = FILL_AREA_STYLE( '', ( #252 ) );
#217 = FILL_AREA_STYLE( '', ( #253 ) );
#218 = FILL_AREA_STYLE( '', ( #254 ) );
#219 = FILL_AREA_STYLE( '', ( #255 ) );
#220 = FILL_AREA_STYLE_COLOUR( '', #256 );
#221 = VERTEX_POINT( '', #257 );
#222 = VERTEX_POINT( '', #258 );
#223 = LINE( '', #259, #260 );
#224 = VERTEX_POINT( '', #261 );
#225 = LINE( '', #262, #263 );
#226 = VERTEX_POINT( '', #264 );
#227 = LINE( '', #265, #266 );
#228 = LINE( '', #267, #268 );
#229 = FILL_AREA_STYLE_COLOUR( '', #269 );
#230 = VERTEX_POINT( '', #270 );
#231 = CIRCLE( '', #271, 3.17500000000000 );
#232 = VERTEX_POINT( '', #272 );
#233 = CIRCLE( '', #273, 3.17500000000000 );
#234 = VERTEX_POINT( '', #274 );
#235 = CIRCLE( '', #275, 6.35000000000000 );
#236 = VERTEX_POINT( '', #276 );
#237 = CIRCLE( '', #277, 6.35000000000000 );
#238 = LINE( '', #278, #279 );
#239 = FILL_AREA_STYLE_COLOUR( '', #280 );
#240 = VERTEX_POINT( '', #281 );
#241 = CIRCLE( '', #282, 3.17500000000000 );
#242 = VERTEX_POINT( '', #283 );
#243 = CIRCLE( '', #284, 3.17500000000000 );
#244 = VERTEX_POINT( '', #285 );
#245 = CIRCLE( '', #286, 6.35000000000000 );
#246 = VERTEX_POINT( '', #287 );
#247 = LINE( '', #288, #289 );
#248 = CIRCLE( '', #290, 6.35000000000000 );
#249 = FILL_AREA_STYLE_COLOUR( '', #291 );
#250 = LINE( '', #292, #293 );
#251 = LINE( '', #294, #295 );
#252 = FILL_AREA_STYLE_COLOUR( '', #296 );
#253 = FILL_AREA_STYLE_COLOUR( '', #297 );
#254 = FILL_AREA_STYLE_COLOUR( '', #298 );
#255 = FILL_AREA_STYLE_COLOUR( '', #299 );
#256 = COLOUR_RGB( '', 0.752941191196442, 0.752941191196442, 0.752941191196442 );
#257 = CARTESIAN_POINT( '', ( 6.35000000000000, 50.8000000000000, 0.000000000000000 ) );
#258 = CARTESIAN_POINT( '', ( 6.35000000000000, 0.000000000000000, 0.000000000000000 ) );
#259 = CARTESIAN_POINT( '', ( 6.35000000000000, 50.8000000000000, 0.000000000000000 ) );
#260 = VECTOR( '', #300, 1000.00000000000 );
#261 = CARTESIAN_POINT( '', ( 6.35000000000000, 50.8000000000000, 3.17500000000000 ) );
#262 = CARTESIAN_POINT( '', ( 6.35000000000000, 50.8000000000000, 3.17500000000000 ) );
#263 = VECTOR( '', #301, 1000.00000000000 );
#264 = CARTESIAN_POINT( '', ( 6.35000000000000, 0.000000000000000, 3.17500000000000 ) );
#265 = CARTESIAN_POINT( '', ( 6.35000000000000, 50.8000000000000, 3.17500000000000 ) );
#266 = VECTOR( '', #302, 1000.00000000000 );
#267 = CARTESIAN_POINT( '', ( 6.35000000000000, 0.000000000000000, 3.17500000000000 ) );
#268 = VECTOR( '', #303, 1000.00000000000 );
#269 = COLOUR_RGB( '', 0.752941191196442, 0.752941191196442, 0.752941191196442 );
#270 = CARTESIAN_POINT( '', ( 3.17500000000000, 50.8000000000000, 3.17500000000000 ) );
#271 = AXIS2_PLACEMENT_3D( '', #304, #305, #306 );
#272 = CARTESIAN_POINT( '', ( 3.17500000000000, 0.000000000000000, 3.17500000000000 ) );
#273 = AXIS2_PLACEMENT_3D( '', #307, #308, #309 );
#274 = CARTESIAN_POINT( '', ( -6.35000000000000, 0.000000000000000, 3.17500000000000 ) );
#275 = AXIS2_PLACEMENT_3D( '', #310, #311, #312 );
#276 = CARTESIAN_POINT( '', ( -6.35000000000000, 50.8000000000000, 3.17500000000000 ) );
#277 = AXIS2_PLACEMENT_3D( '', #313, #314, #315 );
#278 = CARTESIAN_POINT( '', ( -6.35000000000000, 0.000000000000000, 3.17500000000000 ) );
#279 = VECTOR( '', #316, 1000.00000000000 );
#280 = COLOUR_RGB( '', 0.752941191196442, 0.752941191196442, 0.752941191196442 );
#281 = CARTESIAN_POINT( '', ( 3.17500000000000, 50.8000000000000, 0.000000000000000 ) );
#282 = AXIS2_PLACEMENT_3D( '', #317, #318, #319 );
#283 = CARTESIAN_POINT( '', ( 3.17500000000000, 0.000000000000000, 0.000000000000000 ) );
#284 = AXIS2_PLACEMENT_3D( '', #320, #321, #322 );
#285 = CARTESIAN_POINT( '', ( -6.35000000000000, 0.000000000000000, 0.000000000000000 ) );
#286 = AXIS2_PLACEMENT_3D( '', #323, #324, #325 );
#287 = CARTESIAN_POINT( '', ( -6.35000000000000, 50.8000000000000, 0.000000000000000 ) );
#288 = CARTESIAN_POINT( '', ( -6.35000000000000, 0.000000000000000, 0.000000000000000 ) );
#289 = VECTOR( '', #326, 1000.00000000000 );
#290 = AXIS2_PLACEMENT_3D( '', #327, #328, #329 );
#291 = COLOUR_RGB( '', 0.752941191196442, 0.752941191196442, 0.752941191196442 );
#292 = CARTESIAN_POINT( '', ( -6.35000000000000, 0.000000000000000, 3.17500000000000 ) );
#293 = VECTOR( '', #330, 1000.00000000000 );
#294 = CARTESIAN_POINT( '', ( -6.35000000000000, 50.8000000000000, 3.17500000000000 ) );
#295 = VECTOR( '', #331, 1000.00000000000 );
#296 = COLOUR_RGB( '', 0.752941191196442, 0.752941191196442, 0.752941191196442 );
#297 = COLOUR_RGB( '', 0.752941191196442, 0.752941191196442, 0.752941191196442 );
#298 = COLOUR_RGB( '', 0.752941191196442, 0.752941191196442, 0.752941191196442 );
#299 = COLOUR_RGB( '', 0.752941191196442, 0.752941191196442, 0.752941191196442 );
#300 = DIRECTION( '', ( 0.000000000000000, -1.00000000000000, 0.000000000000000 ) );
#301 = DIRECTION( '', ( 0.000000000000000, 0.000000000000000, -1.00000000000000 ) );
#302 = DIRECTION( '', ( 0.000000000000000, -1.00000000000000, 0.000000000000000 ) );
#303 = DIRECTION( '', ( 0.000000000000000, 0.000000000000000, -1.00000000000000 ) );
#304 = CARTESIAN_POINT( '', ( 2.16840434497101E-016, 50.8000000000000, 3.17500000000000 ) );
#305 = DIRECTION( '', ( 0.000000000000000, 0.000000000000000, -1.00000000000000 ) );
#306 = DIRECTION( '', ( 1.00000000000000, 0.000000000000000, 0.000000000000000 ) );
#307 = CARTESIAN_POINT( '', ( 0.000000000000000, 0.000000000000000, 3.17500000000000 ) );
#308 = DIRECTION( '', ( 0.000000000000000, 0.000000000000000, -1.00000000000000 ) );
#309 = DIRECTION( '', ( 1.00000000000000, 0.000000000000000, 0.000000000000000 ) );
#310 = CARTESIAN_POINT( '', ( 0.000000000000000, 0.000000000000000, 3.17500000000000 ) );
#311 = DIRECTION( '', ( 0.000000000000000, 0.000000000000000, -1.00000000000000 ) );
#312 = DIRECTION( '', ( 1.00000000000000, 0.000000000000000, 0.000000000000000 ) );
#313 = CARTESIAN_POINT( '', ( 2.16840434497101E-016, 50.8000000000000, 3.17500000000000 ) );
#314 = DIRECTION( '', ( 0.000000000000000, 0.000000000000000, -1.00000000000000 ) );
#315 = DIRECTION( '', ( -1.00000000000000, 0.000000000000000, 0.000000000000000 ) );
#316 = DIRECTION( '', ( 0.000000000000000, 1.00000000000000, 0.000000000000000 ) );
#317 = CARTESIAN_POINT( '', ( 2.16840434497101E-016, 50.8000000000000, 0.000000000000000 ) );
#318 = DIRECTION( '', ( 0.000000000000000, 0.000000000000000, -1.00000000000000 ) );
#319 = DIRECTION( '', ( 1.00000000000000, 0.000000000000000, 0.000000000000000 ) );
#320 = CARTESIAN_POINT( '', ( 0.000000000000000, 0.000000000000000, 0.000000000000000 ) );
#321 = DIRECTION( '', ( 0.000000000000000, 0.000000000000000, -1.00000000000000 ) );
#322 = DIRECTION( '', ( 1.00000000000000, 0.000000000000000, 0.000000000000000 ) );
#323 = CARTESIAN_POINT( '', ( 0.000000000000000, 0.000000000000000, 0.000000000000000 ) );
#324 = DIRECTION( '', ( 0.000000000000000, 0.000000000000000, -1.00000000000000 ) );
#325 = DIRECTION( '', ( 1.00000000000000, 0.000000000000000, 0.000000000000000 ) );
#326 = DIRECTION( '', ( 0.000000000000000, 1.00000000000000, 0.000000000000000 ) );
#327 = CARTESIAN_POINT( '', ( 2.16840434497101E-016, 50.8000000000000, 0.000000000000000 ) );
#328 = DIRECTION( '', ( 0.000000000000000, 0.000000000000000, -1.00000000000000 ) );
#329 = DIRECTION( '', ( -1.00000000000000, 0.000000000000000, 0.000000000000000 ) );
#330 = DIRECTION( '', ( 0.000000000000000, 0.000000000000000, -1.00000000000000 ) );
#331 = DIRECTION( '', ( 0.000000000000000, 0.000000000000000, -1.00000000000000 ) );
ENDSEC;
END-ISO-10303-21;
